ZADNJE NA FORUMU
  • Bjesovi????

    Komentirao: Sman

    Datum: 28-07 14:26

    Odgovora: 1

    Pogleda: 25

  • Triplet Noir Studios

    Komentirao: pekki

    Datum: 27-07 18:29

    Odgovora: 36

    Pogleda: 695

  • ICO-FX

    Komentirao: gstaraz

    Datum: 27-07 03:39

    Odgovora: 21

    Pogleda: 1643

  • Mali vs veliki rig - moja razmišljanja.

    Komentirao: Ico79

    Datum: 26-07 21:28

    Odgovora: 22

    Pogleda: 397

  • Reverb lick

    • Datum:   22-03-2009 22:53
    • Autor:  
    • Ispiši   Stranicu
    ne znam ni jeli ovo lick,neznam ni jeli za ovu temu samo mi recite jeli valja štogod da znam na čemu sam :D

    Akordi/Tabovi:
    e|-----------------------18-15-15-18-------------18/20-18---------|
    B|-18b-16-15-16-15-16-15-------------16-15-16-16----------21-20-18|
    G|----------------------------------------------------------------|
    D|----------------------------------------------------------------|
    A|----------------------------------------------------------------|
    E|----------------------------------------------------------------|

    e|-----------------------------------------18-15-20-20b-18-17-18-|
    B|---------------------------------------------------------------|
    G|-20-19h20p19-17-17-17b-15-12-15-15-17-15-----------------------|
    D|---------------------------------------------------------------|
    A|---------------------------------------------------------------|
    E|---------------------------------------------------------------|

    e|-17h18p17-15-18------------------------------------------------|
    B|---------------------------------------------------------------|
    G|----------------15-17-17bp15----------------17-15-15-17-19/20--|
    D|-----------------------------15/17-20-17-15--------------------|
    A|---------------------------------------------------------------|
    E|---------------------------------------------------------------|

    e|---------------------------------------------------------------|
    B|---------------------------------------------------------------|
    G|-19-17h19p17-15-15h17/19/20\19p17h19p17\15---------------------|
    D|---------------------------------------------------------------|
    A|---------------------------------------------------------------|
    E|---------------------------------------------------------------|


    Snimka

    http://www.box.net/shared/u2o4xzl476

    Slični tekstovi

    Pregledano 13662 puta
    PMS
    Pregledano 3483 puta
    Pregledano 4183 puta
    Pregledano 4909 puta
    Pregledano 6695 puta

    » 2 komentara... Dodaj svoj!

    Rollingthing kaže:

    Valja,samo neznam početak a i onih par tonova mi liči na tonove iz November Rain,i onaj uvodni ton s bendom,a kasnije odlaziš na druge tonove!

    16-04-2009 23:15

    Labtec kaže:

    ma ne nisu to tonovi iz november rain,nikad nisam probao skidat taj solo a i iskreno posluša sam pjesmu jedno tri puta tako da mi nije baš ostala u glavi.tnx :)

    26-04-2009 19:48