ZADNJE NA FORUMU
  • Marathon strat

    Komentirao: RockingLife

    Datum: 25-02 00:05

    Odgovora: 0

    Pogleda: 15

  • Krepao Laney?

    Komentirao: Strat04

    Datum: 24-02 13:32

    Odgovora: 10

    Pogleda: 130

  • Vatrogasac Mirko - potrebni akordi

    Komentirao: Benny7

    Datum: 24-02 13:11

    Odgovora: 0

    Pogleda: 28

  • Zamjene...

    Komentirao: Strat04

    Datum: 24-02 11:39

    Odgovora: 917

    Pogleda: 82546

  • Untitled blues lick

    • Datum:   22-03-2009 18:07
    • Autor:  
    • Ispiši   Stranicu
    MALA LEGENDA ZNAKOVA:
    v-vibrato
    (x)bendati do tona na oznacenom polju
    s-slide
    h- hamer on
    p- pull off
    st-staccato
    rb- relase (otpustite) bend
    x- mutirano
    *-legato
    drito iz A, standardnoe blues progresije.
    ovako prvo:

    Akordi/Tabovi:
    ---------------------------------------------------------
    ---------------------------------------------------------
    ---7-(9)-7-(9)v-5----------------7-(9)-7-(9)v-5---5------
    ------------------7-7v-5h7-s0--------------------7--5-s7v
    ---------------------------------------------------------
    ---------------------------------------------------------

    http://www.box.net/shared/0x31i7g73y - ovako zvuci taj lick kada se svira tocno kako pise.
    http://www.box.net/shared/4ae9z9vyn7 - ovako ta snimka zvuci kada joj dodate malo 'sminke', tj. kada joj dodate nesto svoje. Mnogo zivlje i punije djeluje.

    Sad nezelite cijelo vrijeme svirati isto nego ubacujete male varijacije :)
    Akordi/Tabovi:
    ------------------------------
    -------------8----------------
    ---7-(9)-7-(9)7v-5-----st5----
    -------------------7v-----st7-
    ------------------------------
    ------------------------------

    http://www.box.net/shared/zan3tq7y0j

    sad to spojite u jednu cjelinu i onda shvatite da vam ni to nije dovoljno. Zelite razviti pricu dalje.
    Akordi/Tabovi:
    -------------------------------------------8---10st(12)rb10-8h10p8----------
    -------------------------------------8-h10---------------x---------10--8h10-
    ------------7h9p7----------------------------------------x------------------
    -------7-h10--------10--7v-------------------------------x------------------
    --7-h10---------------------------------------------------------------------
    ----------------------------------------------------------------------------

    http://www.box.net/shared/iklanxoosf

    svakom normalnom covjeku bi ovdje bilo dosta ali ne i nama gitaristima :p. Zato na kraju jedan socni, agresivni lick.

    Akordi/Tabovi:
    15-(17)-15-(17)rb15-12h15p12----------------------------------------------------
    ---x----x-------------------13h15p13--------------------------------------------
    --x----x------------------------------12s14-12v------7s9-7v--5h7p5--------------
    -x----x-------------------------------------------------------------*7-5--------
    ------------------------------------------------------------------------7-6-5---
    -----------------------------------------------------------------------------8-5

    http://www.box.net/shared/ujnmzbvjlu

    Naglasavam da je ovaj posljednji lick vrlo vazno eksplozivno odsvirat, a jos je vaznije da vi sami preuredite ovaj lick kako zelite jer je to i svrha. Da sami razumijete skalu i odnose medju tonovima. Savjetujem vam da unesete svih zacina: pincheva, palm mutinga, stopanja, sweepanja i svega ostalog da bi ucinili vasu solazu sto zanimljivijom i raznovrsnijom. Etoga. SAd slobodno kombinirajte sva 4 licka i ubacujte vase. Do sljedeceg licka. Pozdrav :)


    Bubi..

    Slični tekstovi

    Pregledano 11374 puta
    Pregledano 12348 puta
    Pregledano 4450 puta
    Pregledano 9349 puta
    Pregledano 3134 puta

    » 1 komentara... Dodaj svoj!

    Mateo FS kaže:

    Bravo:)

    29-12-2009 17:53