Zvijezda Sjevera /Verzija 2/

  • autor: Filipic
  • datum: 13-02-2009 13:40

Pronađi akord!

Ne znaš kako odsvirati neki od akorda pjesmi Zvijezda Sjevera /Verzija 2/? Upiši akord u tražilicu i saznaj!

Traženi akord će se prikazati ovdje

Od istog izvođača

Pregledano 37264 puta
Pregledano 43578 puta
Pregledano 11548 puta
Pregledano 5394 puta
Pregledano 5491 puta
Akordi/Tabovi:
Uvod:
E||------3-5/7\5-3-2h3p2p0-2--0-------|-----------------------5/7\5---------|
B||----3------------------------5-5-3-|-----------------------------7/8\5-7-|
G||-----------------------------------|---5----4h5p4-2-4---*7---------------|
D||--5--------------------------------|-----*5-----------*5-----------------|
A||-----------------------------------|-------------------------------------|
E||-----------------------------------|-------------------------------------|

   --0-----2--3--3---------|
   ----5-5-------3---------|
   --------------0---------|
   --0-----0-----0---------|
   --------------2---------|
   --------------3---------|

info: primer 5/7\5 okidate samo prvu peticu ostatak odslajdujete
      isto to i kod 7/8\5 okidate samo 7.
      Brojeve oznacene * svirate skroz brzo jedva da se cuju
      kao cisti tonovi.Kod sola brojeve u zagradama svirat priguseno

Verse:
G             C
Sedam godina je iza nas
G             C
Zvjezdo sjevera.......

Chorus:
       D   Am
Jos si lijepa
     C          G
Isto kao i prvi put
     Em       D
Meni najljepsa
C       Em Am G
Zvjezda sjevera

ova cetir akorda na zvjezda sjevera bolje da odsvirate kao
|--------------|
|--------------|
|--------------|
|--------------|
|--3--2--0-----|
|-----------3--|

  D    C    Am   G      Em
--2----0----0----3----|-------|
--3----1----1----3----|--0----|
--2----0----2----0----|--0----|
--0----2----2----0----|--2----|
-------3----0----2----|--2----|
-----------------3----|--0----|

solo:
E||-------------------------|---------------------------|
B||-------------------8-----|--10pbr--8---12h13----12---|
G||-------------7--9-----9--|---------------------------|
D||------5--7/9-------------|---------------------------|
A||--5/7--------------------|---------------------------|
E||-------------------------|---------------------------|

------------------------------|-----------------------------------|
--------------15--------15b---|----12h15----15---(15)-(12)----12/-|
--14--12--14b-----12----------|-------------14b---14---12-----12/-|
------------------------------|----------------------------14-----|
------------------------------|-----------------------------------|
------------------------------|-----------------------------------|

-----------------------------|-------------------------------------------|
----12h13--13-12-------------|---------------15b---17-15-----------------|
----12-----------12----------|--------12-12--------------16-17--16h17p16-|
--------------------14-12----|--12h14------------------------------------|
-----------------------------|-------------------------------------------|
-----------------------------|-------------------------------------------|

--17b---15-17br---15-17brp15-----|--14--15--17---14--15h17p15p14-15--||
-----------------------------17--|-----------------------------------||
---------------------------------|-----------------------------------||
---------------------------------|-----------------------------------||
---------------------------------|-----------------------------------||
---------------------------------|-----------------------------------||

b=bend
h=hammer
p=pull of
pbr=pre-bend relase (nategnut okinut pa otpustit)
Komentari

Stagg kaže:

kopirano sa 2akordi.net

22-02-2009 10:59

Mariachi92 kaže:

eeeeeeeeeeeeeeeeeeeextra pesma !!

24-06-2009 22:10

hekler1 kaže:

Hmmm, ispravak na uvodni solo,
početni ton uvoda jeton G(5 polje 4. žica, nakon toga ide ton D5.polje 5. žica),..

08-01-2012 09:45

LoLa kaže:

Ekstra pjesma!!!!!
Niko dvi godine ne vidi da nisu dobri akordi.
5000 članova foruma!!!!!!!

08-01-2012 14:31

Fuse kaže:

Nije duznost clanova foruma da ispravljaju akorde, niti nas zanima.
A inace, mi smo clanovi foruma... tablature se ne nalaze ne forumu, nego na sajtu.

09-01-2012 01:57

LoLa kaže:

Vidim i sam da te ne zanima moj Nišlija.
Tvoji komentari se odnose na mini orgazme
a ne na glazbu.Vidim postavio si puno puno
radova što se glazbe tiče.Bilo bi ti bolje da si se
upisa na neki seksistički "sajt"(forum).
Znam ja dobro da nije dužnost članova ispravljat
radove ali kako te ne boli pustiti da dica uče
pogrešno ali je važno da ti (možda) znaš ali
iz ljubomore ne želiš ispraviti da i drugi
nauče točno svirati.Ako ne znaš a najvjerojatnije
ne znaš onda i dalje ostani na onim tvojim glupim
komentarima koji su ti na "sajtu"(forumu).

09-01-2012 07:35

sainax999 kaže:

pjesma je iz gisa, ali svejedno je lijepo da se neko potrudio stavit ovak puno toga

01-05-2013 21:59