Ti Samo Budi Dovoljno Daleko

  • autor: Princ
  • datum: 26-01-2009 18:20

Pronađi akord!

Ne znaš kako odsvirati neki od akorda pjesmi Ti Samo Budi Dovoljno Daleko? Upiši akord u tražilicu i saznaj!

Traženi akord će se prikazati ovdje

Od istog izvođača

Pregledano 5234 puta
Pregledano 3966 puta
Pregledano 13998 puta
Pregledano 12483 puta
Pregledano 4966 puta
Akordi/Tabovi:
Generacija 5-ti samo budi dovoljno daleko
Solo:1
   Em           D                C          D               Em
---12-------------------------------------------------10---------
12-----12-10----10-12-10---------------------------10----10-12---
-------------12-------------9-11-11-12-9-12-11-------------------
-------------------------12---------------------12---------------
-----------------------------------------------------------------
-----------------------------------------------------------------
originalna pratnja za solo
------2---0---------------5---------------3-0---------------0----
--------------3---------3---3-----------1-----2-----------3-3----
----------------------0-------0-------0---------0-------2---2----
----2---2---2---2---4-----------4---2-------------2---0-----0-0-2
------------------5---------------3-----------------2-------2----
--0--------------------------------------------------------------
intro                        text  Ti    samo budi        dovoljno
----2---0------------------------------2------0------------------
------------3-------------------3-----------------3--------------
--------------------2---0-----0---------------------------2------
--2---2---2---2---2---2---2-4--------2---2------2---2---2---2----
----------------2-------------------------------------2----------
0----------------------------------0-----------------------------
daleko         za mene postoji        drugi nekooo
------------------2-------0---------------------2---0------------
----------3-----------------1-----------3---------------3--------
--0-----0---------------------0-------0--------------------------
----2-4-------2-----2-----------2---4---------2---2---2---2------
------------3---------------------5------------------------------
--------------------------------------------0--------------------
    cije ce reci         manje da bole            cije ce ruke
----2-------0-------------------------------------2-------0------
----------------3---------------------------3---------------1----
-------------------------2---------0------0-------------------0--
--2------2----2---2----2-------2-----2--4-------2------2--------2
---------------------2------------------------3------------------
0----------------------------------------------------------------
    lepse da voleee                  pa refren u akordima nastavite
-----------------2---0-------------------------------------------
------3------------------3---------------------------------------
----0----------------------------2---------------2-4-5-----------
--4------------2---2---2---2---2---2-------2-4-5-----------------
5----------------------------2-------2-4-5-----------------------
-------------0---------------------------------------------------
STROFA:1
Em
Ti samo budi dovoljno daleko
C               D     Em
Za mene postoji drugi neko
Em
Cije ce reci manje da bole
C            D        Em
Cije ce ruke lepse da vole

REFREN:1
C            Hm    Em
Ti samo budi tamna sena
Am                     G
Za mene stizu lepsa vremena
C          Hm    Em
Ulice nove, nova lica
Am           H       Em
I jedno nebo prepuno ptica

STROFA:2
Em
Ti samo budi u srcu trag
C              D    Em
Jos ce mi neko biti drag
Em
Jos cu sa nekim naci srecu
C             D      Em
Nikad te vise voleti necu

REFREN:2
C              Hm    Em
Nekom ces biti dobra zena
Am                G
Odana, verna i postena
C              Hm     Em
Sve nek ti bude drugi neko
Am          H           Em
Ti samo budi dovoljno daleko

1STROFA:
REFREN:1
Solo:2
Em    Am  D       Am    G AmG D Am      H
------5---------5-8-7-8-7-5---------5----
5-7-8---8-7-7-8-------------8-7-5-5---5--
----------------------------------------8
-----------------------------------------
-----------------------------------------
-----------------------------------------
Em    Am  D       Dm   E      Dm   C F            H      Em
------5---------5-10-8-7------7----------------------------
5-7-8---8-7-7-8----------9-10---10-8----------------10-8---
-------------------------------------10-10-9-10-9-8------9-
-----------------------------------------------------------
-----------------------------------------------------------
-----------------------------------------------------------
STROFA:2
REFREN:2
Solo:2
Komentari

Princ kaže:

Kome se svidja ova pjesma nek skine sebi i akusticnu verziju koja je na dosta drugaciji fazon.Znaci akustina verzija traje 04:19 sec. a ova normalna 06:33 sec.
Akustina verzija ima pored svog naziva(unplugged)i ja sam je skino na LimeWire posto je bas nisam mogao naci ovako,ali nisam je puno ni trazio.

26-01-2009 20:27

Princ kaže:

Ako ne mozete naci akusticnu verziju iz razoga sto je mozda u medjuvremenu izbacena sa interneta.Mozete je pogledati na youtube Djordje David and Tommy-Ti samo budi dovoljno daleko.

02-02-2009 20:12

Gruja kaže:

Swaka cast za ovo ...Odlicno je...

28-06-2009 15:19

vlado|rudo kaže:

Moze ovo i na akusticnoj. javascriptne();

17-08-2009 11:06

zanjice kaže:

Moze li neko napisati kako se hvata ovaj Hm, nigdje ne mogu naci..

03-01-2010 18:50

dedamraz1991 kaže:

e kako ide ritam za ovu pesmu? please .....

16-02-2010 22:24

Jaha kaže:

Ako za ovo ne mozes ugvatit ritam ubij se.

03-12-2011 12:12

shlogie.cvetkovic@gmail. kaže:

Hm ti je isto sto i Am samo za dva praha vise

10-06-2012 13:04

shlogie.cvetkovic@gmail. kaže:

super uradjena stvar

10-06-2012 13:16