JEDAN ŽIVOT MALO JE

  • autor: Rudi
  • datum: 24-01-2008 14:12

Pronađi akord!

Ne znaš kako odsvirati neki od akorda pjesmi JEDAN ŽIVOT MALO JE? Upiši akord u tražilicu i saznaj!

Traženi akord će se prikazati ovdje

Od istog izvođača

Pregledano 38469 puta
Pregledano 4349 puta
Pregledano 1713 puta
Pregledano 733 puta
Pregledano 5477 puta
JEDAN ŽIVOT MALO JE
Prva Liga
Akordi/Tabovi:
UVOD :
e||--7--7---9----7--5--- 5------5---5---7---5---4---7-----7---7----9----7----5---5--
H||--9--9--10---9---7--- 7------7---7---9---7---5---9-----9---9---10----9----7---7-
G||------------------------------------------------------------------------------
D||---------------------------------------------------------------
A||------------------------------------------------------------
E||------------------------------------------------------

e||-----5----7----4--------------------
H||-----7----9----5-----------------------
G||--------------------------------------------
D||---------------------------6s7-6----------
A||------------------------------------9--7--
E||-------------------------------------------
               A  H               E
I U DOBRU I U ZLU JA BEZ TEBE NE MOGU
              A    H               E
SRCE SI MI TAKNULA RUKOM BIJELOG ANĐELA
                 H                  E
JEDAN ŽIVOT MALO JE  DA SE SRCE NAPIJE
                  H                  E
UVIJEK ŽEDNO LJUBAVI DVA ŽIVOTA TREBA MI
     A
     SVE TE VIŠE VOLIM JA
                      E
     LJUBE MOJA, VOLIM ZA ŽIVOTA DVA
                       H
     VJERO MOJA, JEDAN ŽIVOT MALO JE
                  E
     ZA MENE I ZA TEBE

SOLO :
e||---------------4-5---7--5-4----------------4-5-7---12----------
H||-------4-5-7-------------------7--5--7-----------------------4-(7)-
G||-4-6----------------------------------------------------------------4--6-4----
D||-----------------------------------------------------------------------------4--6
A||---------------------------------------------------------------------------------
E||--------------------------------------------------------------------------------

e||-----7--9---11---11-12-14-------17--19--16--12----16(15)(16)--
H||---  --7---7-------------------------------------------------------
G||-------------------------------------------------------
D||------------------------------------------------------
A||-------------------------------------------------
E||-----------------------------------------------

I KAD PROĐU RADOSTI OVE NAŠE MLADOSTI

ISTO ĆU TE VOLJETI KAO DANAS, LJUBAVI

JEDAN ŽIVOT MALO JE DA SE SRCE NAPIJE

UVIJEK ŽEDNO LJUBAVI DVA ŽIVOTA TREBA MI
rudimarakovic@yahoo.com
Komentari

ljubo001 kaže:

Odlično!
Hvala ti majstore.

Samo bih ubacio između ponavljanja refrena prijelaz sa E na E7.

Postiže fini efekat!

19-12-2009 07:07

Zagi82 kaže:

Ej kolega, malo si fulal solazu. Sjeo sam si pa sam ju skinuo kao u ovom spotu:
http://www.youtube.com/watch?v=EthCU8C22ZI

Akordi/Tabovi:
SOLO :
e||------------------------------------------------------------------------12(12)12~~~
H||-----------------9--9^10 ~ 10(bend)12~ -9---7^9^7 \ 5 / 7-7--9^10 / 12------------
G||---------------9-------------------------------------------------------------------
D||----6^7-9 / 11 --------------------------------------------------------------------
A||---------------------------------------------------------------------------------
E||--------------------------------------------------------------------------------


SOLO :
e||----------------------7---9 / 11 --11-12-14-17-19-16(bend)17(bend)16--------
H||------------------7~ ---7--------------------------------------------17-19 ~~~~~~~~
G||---------6---6^8-----------------------------------------------------------
D||---6^7/9---9--------------------------------------------------------------------
A||---------------------------------------------------------------------------------
E||--------------------------------------------------------------------------------

30-03-2011 22:33

xxxxVenomxxxx kaže:

Akordi/Tabovi:
Ovo je dobro,ljubo001 u pravu si tako i ja radim,evo ovako bi ja to odsvirao:


               A   H                E
I U DOBRU I U ZLU JA BEZ TEBE NE MOGU
            A      H                 E
SRCE SI MI TAKNULA RUKOM BIJELOG ANĐELA
             H                  E
JEDAN ŽIVOT MALO JE  DA SE SRCE NAPIJE
              H                 E        E7
UVIJEK ŽEDNO LJUBAVI DVA ŽIVOTA TREBA MI
     A
     SVE TE VIŠE VOLIM JA
             H7  E
     LJUBE MOJA, VOLIM ZA ŽIVOTA DVA
             F#7  H
     VJERO MOJA, JEDAN ŽIVOT MALO JE
                  E   E7
     ZA MENE I ZA TEBE

11-09-2011 23:15

rudica kaže:

Slažem se !!! LP svima

12-09-2011 07:53