Webshop Music Centar

Miki Jevremovic

Pijem

by: Rudi

Pronađi akord!

Ne znaš kako odsvirati neki od akorda pjesmi Pijem? Upiši akord u tražilicu i saznaj!

Traženi akord će se prikazati ovdje

Od istog izvođača

Pregledano 4012 puta
Pregledano 3719 puta
Pregledano 19539 puta
Pregledano 6854 puta
Pregledano 6005 puta
Trebaš ritam za ovu pjesmu? Pronađi ga ovdje
Akordi/Tabovi:
PIJEM  Miki Jevremović

    Dm
1----------------------------------------------
2---1o-9-10----10-9-10----10----10---10-9-10---
3-----------10---------10----10----10-------10-

    A7
1----------------------------------------------
2---8-7-8---8-7-8--8--8--8-7-8-----------------
3---------9-------9--9--9------9---------------

    Gm
1---10-9-10--10-9-10---10---10---10-9-10-------
2----------11--------11---11---11-------11-----
3----------------------------------------------

   A
1--9-10-12-10-9-------------------------10-----
2---------------11-10-------------------10-----
3---------------------12-10-9------10----------
4-----------------------------12---------------


Dm         D7      Gm     C
sam sam sa casom i tugom ,staro

                   F  A7
smo drustvo mi zar ne

Dm        D7             Gm
pricam sa vinom kao s` drugom

A                     Dm
slusa me mada zna vec sve


Dm        D7       Gm
pijem al` ne znam cemu sve to,

C       (Gm6)   F     A7
i pijan ja je ipak volim

Dm        D7     Gm
pijem jer jedno davno leto,

A7                        Dm
samo uz vino mogu da prebolim

Dm           D7     Gm
za mene niko sad ne mari,

C7             F     A7
al` nikog necu ja da molim

Dm        D7  Gm
pijem jer ima mnogo stvari

        Gm6        A7           Dm
koje ja samo pijan mogu da prebolim



sam sam sa casom i tugom,drustvo bas veselo zar ne


ja nikad necu biti s` drugom,


uz vino ja sam pored nje
Komentari

dabra kaže:

odlicno......--Ako moze . jos i onu meni najdrazu "Nema te", akordi , tekst i muzika, bio bih puno zahvalan
pozdrav

26-01-2010 17:34

Stijo kaže:

tooooooooo....Ubio sam se trzecu pesmu....HVALA PUNOOO

14-02-2012 14:10