EKV - Srce


Online: 4 korisnik(a), 178 gost(iju)
107210

Korisnici

7 odgovora

Hvala:   0   puta

jofranic kaže:

Molim Vas, ako netko ima potpune tablature i akorde za ovu pjesmu. Ono što se može naći na netu uglavnom je netočno ili nepotpuno! Puno hvala!!!!

18-07-2009 20:05 GMT

108080

Korisnici

125 odgovora

Hvala:   1   puta

tordajav kaže:

Mogao bih ti ja pomoći ali mi nije trenutno tu gitara, prodao sam, ali uskoro kupujem novu

25-07-2009 12:31 GMT

108152

Korisnici

335 odgovora

Hvala:   0   puta

suzana kaže:

Akordi/Tabovi:
[Uvod]
   |       |       |       |         |       |       |       |
E----------------------------------|---------------------------------|
B----------------------------------|---------------------------------|
G--4-4---4---4---6---6---6---6-6---|-7-7---7---7---9---9---9---9-9---|
D--7-7---7---7---7---7---7---7-7---|-7-7---7---7---7---7---7---7-7---|
A----------------------------------|---------------------------------|
E----------------------------------|---------------------------------|

   |       |       |       |         |       |        |         |
E----------------------------------|--------------------------------------|
B----------------------------------|-7-7---7---7---10---10---10---10-10---|
G--4-4---4---4---6---6---6---6-6---|-7-7---7---7----9----9----9----9--9---|
D--7-7---7---7---7---7---7---7-7---|-7-7---7---7----7----7----7----7--7---|
A----------------------------------|--------------------------------------|
E----------------------------------|--------------------------------------|


[Solo 1]
   |       |       |       |           |       |       |       |
E----------------------------------|---------------------------------|
B--8p7-8p7-8p7---------------------|-7h8p7-8p7-8p7-------------------|
G----------------7---6-------------|---------------------------------|
D------------------------7---------|-----------------5-----7-7-------|
A----------------------------------|---------------------------------|
E----------------------------------|---------------------------------|

   |       |       |       |         |       |       |       |
E----------------------------------|---------------------------------|
B--8p7-8p7-8p7---------------------|---------------------------------|
G----------------7---6-------------|-4-4---4---4---6---6---6---6-6---|
D------------------------7---------|---------------------------------|
A----------------------------------|---------------------------------|
E----------------------------------|---------------------------------|

     |       |       |       |
E----------------------------------|
B----------------5---5---5---5-5---|
G--7-7---7---7---------------------|
D----------------------------------|
A----------------------------------|
E----------------------------------|

Em    Bm    A  G  D


[Strofa]
     A                    Asus4
Nije dotakla nista sto bi moglo da boli

      A                 Asus2
Njene ruke su blede kao led

      A                   Asus4
Njene misli su ciste, ona misli da voli

    A       A
Ona veruje, veruje


[Refren]
     Dsus4              D
Nece doci na jesen kada opada lisce

     Dsus2              D
Nece doci u zimu kad je sneg

     Dsus4              D
Nije imala razlog, nije imala kada
   D(V)       D(V)
Da ostane, da ostane

     C(III)     G(III)
Kraj mene

     C(III)     G(III)
Kraj mene

         C5        G5
Da li da verujem u to?

         C5        G5
Da li da verujem u to?


[Solo 1]


[Strofa]
Nisam rekao nista sto bi moglo da znaci
Nisam nasao onu pravu rec
Koja moze da veze, koja moze da boli
Kojoj verujem, verujem


[Refren]
Nece doci na jesen kada opada lisce
Nece doci u zimu kad je sneg
Nije imala razlog, nije imala kada
Da ostane, da ostane kraj mene

Da li da verujem u to?
Da li da verujem u to?


[Solo 2]
Napomena: nakon svake deonice na gitari, bas gitara svira isto to (samo
za oktavu nize), pa se tek onda prelazi na sledecu deonicu
   |       |       |       |         |       |       |       |
E------------5---------------------|---------------------------------|
B--8p7---8-------8---7-------------|---------------------------------|
G------------------------5---7-7---|-7p5---5---5---5---4---4---5-7---|
D----------------------------------|---------------------------------|
A----------------------------------|---------------------------------|
E----------------------------------|---------------------------------|

   |       |       |         |         |       |       |         |
E------------------------------------|-----------------------------------|
B--8p7-8p7-8p7---8---10---10---------|-8p7-8p7-8p7---8---10---10---------|
G------------------------------------|-----------------------------------|
D------------------------------------|-----------------------------------|
A------------------------------------|-----------------------------------|
E------------------------------------|-----------------------------------|

   |       |       |       |         |       |       |       |
E----------------------------------|---------------------------------|
B--8p7-8p7-8p7-----8p7-8p7-8p7-----|-8p7---8p7---8p7---8p7---8p7-----|
G----------------------------------|---------------------------------|
D----------------------------------|---------------------------------|
A----------------------------------|---------------------------------|
E----------------------------------|---------------------------------|

C(III)      G(III)   2X
C5          G5       2X


[Refren]
Nece doci na jesen kada opada lisce
Nece doci u zimu kad je sneg
Nije imala razlog, nije imala kada
Da ostane, da ostane kraj mene

Da li da verujem u to?
Da li da verujem u to?


[Solo 1]


Akordi/rifovi:
Em:     0 2 2 0 0 0
Bm:     x 2 4 4 3 2
A:      x 0 2 2 2 0
G:      3 2 0 0 2 x
D:      x x 0 2 3 2
Asus4:  x 0 2 2 3 0
Asus2:  x 0 2 2 0 0
Dsus4:  x x 0 2 3 3
Dsus2:  x x 0 2 3 0
D(V):   x x 0 7 7 5
C(III): x 3 5 5 5 3
G(III): 3 5 5 4 3 3
C5:     x 3 5 5 x x
G5:     3 5 5 x x x



el to to? to je sa 2.akordi

25-07-2009 21:35 GMT

108433

Korisnici

2 odgovora

Hvala:   0   puta

atsbp15 kaže:

Bravo i hvala!

Dodano nakon 59 sekund(e)i

Jesi li sama skidala ili imas neki sajt?

27-07-2009 23:27 GMT

108471

Korisnici

335 odgovora

Hvala:   0   puta

suzana kaže:

2 akordi

28-07-2009 14:07 GMT

180332

Korisnici

3 odgovora

Hvala:   0   puta

5ar 5kovic kaže:

imas dobar sajt za akorde http://www.akordi-za-gitaru.com ima skoro sve pesme

21-03-2011 18:52 GMT